ISO-10303-21;
HEADER;
/* Generated by software containing ST-Developer
 * from STEP Tools, Inc. (www.steptools.com) 
 */
/* OPTION: using custom renumber hook */

FILE_DESCRIPTION(
/* description */ ('STEP AP242',
'CAx-IF Rec.Pracs.---Representation and Presentation of Product Manufa
cturing Information (PMI)---4.0---2014-10-13',
'CAx-IF Rec.Pracs.---3D Tessellated Geometry---0.4---2014-09-14','2;1'),

/* implementation_level */ '2;1');

FILE_NAME(
/* name */ 'Housing - Part 3',
/* time_stamp */ '2025-07-01T09:45:28Z',
/* author */ (''),
/* organization */ (''),
/* preprocessor_version */ 'ST-DEVELOPER v20',
/* originating_system */ 'ONSHAPE BY PTC INC, 1.200',
/* authorisation */ '  ');

FILE_SCHEMA (('AP242_MANAGED_MODEL_BASED_3D_ENGINEERING_MIM_LF { 1 0 10303 442 1 1 4 }'));
ENDSEC;

DATA;
#10=SHAPE_REPRESENTATION_RELATIONSHIP('','',#283,#11);
#11=ADVANCED_BREP_SHAPE_REPRESENTATION('',(#281),#441);
#12=ORIENTED_EDGE('',*,*,#84,.F.);
#13=ORIENTED_EDGE('',*,*,#85,.T.);
#14=ORIENTED_EDGE('',*,*,#86,.T.);
#15=ORIENTED_EDGE('',*,*,#87,.F.);
#16=ORIENTED_EDGE('',*,*,#88,.F.);
#17=ORIENTED_EDGE('',*,*,#89,.T.);
#18=ORIENTED_EDGE('',*,*,#90,.T.);
#19=ORIENTED_EDGE('',*,*,#91,.F.);
#20=ORIENTED_EDGE('',*,*,#92,.T.);
#21=ORIENTED_EDGE('',*,*,#89,.F.);
#22=ORIENTED_EDGE('',*,*,#93,.F.);
#23=ORIENTED_EDGE('',*,*,#94,.T.);
#24=ORIENTED_EDGE('',*,*,#95,.F.);
#25=ORIENTED_EDGE('',*,*,#94,.F.);
#26=ORIENTED_EDGE('',*,*,#96,.T.);
#27=ORIENTED_EDGE('',*,*,#97,.T.);
#28=ORIENTED_EDGE('',*,*,#98,.F.);
#29=ORIENTED_EDGE('',*,*,#97,.F.);
#30=ORIENTED_EDGE('',*,*,#99,.T.);
#31=ORIENTED_EDGE('',*,*,#91,.T.);
#32=ORIENTED_EDGE('',*,*,#92,.F.);
#33=ORIENTED_EDGE('',*,*,#95,.T.);
#34=ORIENTED_EDGE('',*,*,#98,.T.);
#35=ORIENTED_EDGE('',*,*,#90,.F.);
#36=ORIENTED_EDGE('',*,*,#100,.T.);
#37=ORIENTED_EDGE('',*,*,#101,.F.);
#38=ORIENTED_EDGE('',*,*,#102,.F.);
#39=ORIENTED_EDGE('',*,*,#103,.T.);
#40=ORIENTED_EDGE('',*,*,#104,.F.);
#41=ORIENTED_EDGE('',*,*,#103,.F.);
#42=ORIENTED_EDGE('',*,*,#105,.T.);
#43=ORIENTED_EDGE('',*,*,#106,.T.);
#44=ORIENTED_EDGE('',*,*,#107,.T.);
#45=ORIENTED_EDGE('',*,*,#108,.T.);
#46=ORIENTED_EDGE('',*,*,#109,.T.);
#47=ORIENTED_EDGE('',*,*,#110,.T.);
#48=ORIENTED_EDGE('',*,*,#111,.F.);
#49=ORIENTED_EDGE('',*,*,#106,.F.);
#50=ORIENTED_EDGE('',*,*,#112,.T.);
#51=ORIENTED_EDGE('',*,*,#113,.F.);
#52=ORIENTED_EDGE('',*,*,#114,.T.);
#53=ORIENTED_EDGE('',*,*,#110,.F.);
#54=ORIENTED_EDGE('',*,*,#115,.F.);
#55=ORIENTED_EDGE('',*,*,#101,.T.);
#56=ORIENTED_EDGE('',*,*,#116,.F.);
#57=ORIENTED_EDGE('',*,*,#112,.F.);
#58=ORIENTED_EDGE('',*,*,#105,.F.);
#59=ORIENTED_EDGE('',*,*,#102,.T.);
#60=ORIENTED_EDGE('',*,*,#115,.T.);
#61=ORIENTED_EDGE('',*,*,#109,.F.);
#62=ORIENTED_EDGE('',*,*,#117,.T.);
#63=ORIENTED_EDGE('',*,*,#84,.T.);
#64=ORIENTED_EDGE('',*,*,#99,.F.);
#65=ORIENTED_EDGE('',*,*,#96,.F.);
#66=ORIENTED_EDGE('',*,*,#93,.T.);
#67=ORIENTED_EDGE('',*,*,#88,.T.);
#68=ORIENTED_EDGE('',*,*,#104,.T.);
#69=ORIENTED_EDGE('',*,*,#111,.T.);
#70=ORIENTED_EDGE('',*,*,#114,.F.);
#71=ORIENTED_EDGE('',*,*,#100,.F.);
#72=ORIENTED_EDGE('',*,*,#118,.T.);
#73=ORIENTED_EDGE('',*,*,#86,.F.);
#74=ORIENTED_EDGE('',*,*,#119,.F.);
#75=ORIENTED_EDGE('',*,*,#107,.F.);
#76=ORIENTED_EDGE('',*,*,#113,.T.);
#77=ORIENTED_EDGE('',*,*,#116,.T.);
#78=ORIENTED_EDGE('',*,*,#87,.T.);
#79=ORIENTED_EDGE('',*,*,#118,.F.);
#80=ORIENTED_EDGE('',*,*,#119,.T.);
#81=ORIENTED_EDGE('',*,*,#85,.F.);
#82=ORIENTED_EDGE('',*,*,#117,.F.);
#83=ORIENTED_EDGE('',*,*,#108,.F.);
#84=EDGE_CURVE('',#120,#121,#144,.T.);
#85=EDGE_CURVE('',#120,#122,#145,.T.);
#86=EDGE_CURVE('',#122,#123,#146,.T.);
#87=EDGE_CURVE('',#124,#123,#147,.T.);
#88=EDGE_CURVE('',#125,#124,#148,.T.);
#89=EDGE_CURVE('',#125,#126,#149,.T.);
#90=EDGE_CURVE('',#126,#127,#150,.T.);
#91=EDGE_CURVE('',#121,#127,#151,.T.);
#92=EDGE_CURVE('',#128,#126,#152,.T.);
#93=EDGE_CURVE('',#129,#125,#153,.T.);
#94=EDGE_CURVE('',#129,#128,#154,.T.);
#95=EDGE_CURVE('',#128,#130,#155,.T.);
#96=EDGE_CURVE('',#129,#131,#156,.T.);
#97=EDGE_CURVE('',#131,#130,#157,.T.);
#98=EDGE_CURVE('',#130,#127,#158,.T.);
#99=EDGE_CURVE('',#131,#121,#159,.T.);
#100=EDGE_CURVE('',#132,#133,#160,.T.);
#101=EDGE_CURVE('',#134,#133,#161,.T.);
#102=EDGE_CURVE('',#135,#134,#162,.T.);
#103=EDGE_CURVE('',#135,#132,#163,.T.);
#104=EDGE_CURVE('',#132,#136,#164,.T.);
#105=EDGE_CURVE('',#135,#137,#165,.T.);
#106=EDGE_CURVE('',#137,#136,#166,.T.);
#107=EDGE_CURVE('',#138,#139,#167,.T.);
#108=EDGE_CURVE('',#139,#140,#168,.T.);
#109=EDGE_CURVE('',#140,#141,#169,.T.);
#110=EDGE_CURVE('',#141,#142,#170,.T.);
#111=EDGE_CURVE('',#136,#142,#171,.T.);
#112=EDGE_CURVE('',#137,#143,#172,.T.);
#113=EDGE_CURVE('',#138,#143,#173,.T.);
#114=EDGE_CURVE('',#133,#142,#174,.T.);
#115=EDGE_CURVE('',#134,#141,#175,.T.);
#116=EDGE_CURVE('',#143,#124,#176,.T.);
#117=EDGE_CURVE('',#140,#120,#177,.T.);
#118=EDGE_CURVE('',#138,#123,#178,.T.);
#119=EDGE_CURVE('',#139,#122,#179,.T.);
#120=VERTEX_POINT('',#368);
#121=VERTEX_POINT('',#369);
#122=VERTEX_POINT('',#371);
#123=VERTEX_POINT('',#373);
#124=VERTEX_POINT('',#375);
#125=VERTEX_POINT('',#377);
#126=VERTEX_POINT('',#379);
#127=VERTEX_POINT('',#381);
#128=VERTEX_POINT('',#385);
#129=VERTEX_POINT('',#387);
#130=VERTEX_POINT('',#391);
#131=VERTEX_POINT('',#393);
#132=VERTEX_POINT('',#401);
#133=VERTEX_POINT('',#402);
#134=VERTEX_POINT('',#404);
#135=VERTEX_POINT('',#406);
#136=VERTEX_POINT('',#410);
#137=VERTEX_POINT('',#412);
#138=VERTEX_POINT('',#416);
#139=VERTEX_POINT('',#417);
#140=VERTEX_POINT('',#419);
#141=VERTEX_POINT('',#421);
#142=VERTEX_POINT('',#423);
#143=VERTEX_POINT('',#426);
#144=LINE('',#367,#180);
#145=LINE('',#370,#181);
#146=LINE('',#372,#182);
#147=LINE('',#374,#183);
#148=LINE('',#376,#184);
#149=LINE('',#378,#185);
#150=LINE('',#380,#186);
#151=LINE('',#382,#187);
#152=LINE('',#384,#188);
#153=LINE('',#386,#189);
#154=LINE('',#388,#190);
#155=LINE('',#390,#191);
#156=LINE('',#392,#192);
#157=LINE('',#394,#193);
#158=LINE('',#396,#194);
#159=LINE('',#397,#195);
#160=LINE('',#400,#196);
#161=LINE('',#403,#197);
#162=LINE('',#405,#198);
#163=LINE('',#407,#199);
#164=LINE('',#409,#200);
#165=LINE('',#411,#201);
#166=LINE('',#413,#202);
#167=LINE('',#415,#203);
#168=LINE('',#418,#204);
#169=LINE('',#420,#205);
#170=LINE('',#422,#206);
#171=LINE('',#424,#207);
#172=LINE('',#425,#208);
#173=LINE('',#427,#209);
#174=LINE('',#429,#210);
#175=LINE('',#430,#211);
#176=LINE('',#432,#212);
#177=LINE('',#433,#213);
#178=LINE('',#436,#214);
#179=LINE('',#437,#215);
#180=VECTOR('',#303,1.);
#181=VECTOR('',#304,1.);
#182=VECTOR('',#305,1.);
#183=VECTOR('',#306,1.);
#184=VECTOR('',#307,1.);
#185=VECTOR('',#308,1.);
#186=VECTOR('',#309,1.);
#187=VECTOR('',#310,1.);
#188=VECTOR('',#313,1.);
#189=VECTOR('',#314,1.);
#190=VECTOR('',#315,1.);
#191=VECTOR('',#318,1.);
#192=VECTOR('',#319,1.);
#193=VECTOR('',#320,1.);
#194=VECTOR('',#323,1.);
#195=VECTOR('',#324,1.);
#196=VECTOR('',#329,1.);
#197=VECTOR('',#330,1.);
#198=VECTOR('',#331,1.);
#199=VECTOR('',#332,1.);
#200=VECTOR('',#335,1.);
#201=VECTOR('',#336,1.);
#202=VECTOR('',#337,1.);
#203=VECTOR('',#340,1.);
#204=VECTOR('',#341,1.);
#205=VECTOR('',#342,1.);
#206=VECTOR('',#343,1.);
#207=VECTOR('',#344,1.);
#208=VECTOR('',#345,1.);
#209=VECTOR('',#346,1.);
#210=VECTOR('',#349,1.);
#211=VECTOR('',#350,1.);
#212=VECTOR('',#353,1.);
#213=VECTOR('',#354,1.);
#214=VECTOR('',#359,1.);
#215=VECTOR('',#360,1.);
#216=EDGE_LOOP('',(#12,#13,#14,#15,#16,#17,#18,#19));
#217=EDGE_LOOP('',(#20,#21,#22,#23));
#218=EDGE_LOOP('',(#24,#25,#26,#27));
#219=EDGE_LOOP('',(#28,#29,#30,#31));
#220=EDGE_LOOP('',(#32,#33,#34,#35));
#221=EDGE_LOOP('',(#36,#37,#38,#39));
#222=EDGE_LOOP('',(#40,#41,#42,#43));
#223=EDGE_LOOP('',(#44,#45,#46,#47,#48,#49,#50,#51));
#224=EDGE_LOOP('',(#52,#53,#54,#55));
#225=EDGE_LOOP('',(#56,#57,#58,#59,#60,#61,#62,#63,#64,#65,#66,#67));
#226=EDGE_LOOP('',(#68,#69,#70,#71));
#227=EDGE_LOOP('',(#72,#73,#74,#75));
#228=EDGE_LOOP('',(#76,#77,#78,#79));
#229=EDGE_LOOP('',(#80,#81,#82,#83));
#230=FACE_BOUND('',#216,.T.);
#231=FACE_BOUND('',#217,.T.);
#232=FACE_BOUND('',#218,.T.);
#233=FACE_BOUND('',#219,.T.);
#234=FACE_BOUND('',#220,.T.);
#235=FACE_BOUND('',#221,.T.);
#236=FACE_BOUND('',#222,.T.);
#237=FACE_BOUND('',#223,.T.);
#238=FACE_BOUND('',#224,.T.);
#239=FACE_BOUND('',#225,.T.);
#240=FACE_BOUND('',#226,.T.);
#241=FACE_BOUND('',#227,.T.);
#242=FACE_BOUND('',#228,.T.);
#243=FACE_BOUND('',#229,.T.);
#244=PLANE('',#285);
#245=PLANE('',#286);
#246=PLANE('',#287);
#247=PLANE('',#288);
#248=PLANE('',#289);
#249=PLANE('',#290);
#250=PLANE('',#291);
#251=PLANE('',#292);
#252=PLANE('',#293);
#253=PLANE('',#294);
#254=PLANE('',#295);
#255=PLANE('',#296);
#256=PLANE('',#297);
#257=PLANE('',#298);
#258=ADVANCED_FACE('',(#230),#244,.T.);
#259=ADVANCED_FACE('',(#231),#245,.T.);
#260=ADVANCED_FACE('',(#232),#246,.F.);
#261=ADVANCED_FACE('',(#233),#247,.F.);
#262=ADVANCED_FACE('',(#234),#248,.F.);
#263=ADVANCED_FACE('',(#235),#249,.T.);
#264=ADVANCED_FACE('',(#236),#250,.F.);
#265=ADVANCED_FACE('',(#237),#251,.F.);
#266=ADVANCED_FACE('',(#238),#252,.T.);
#267=ADVANCED_FACE('',(#239),#253,.T.);
#268=ADVANCED_FACE('',(#240),#254,.T.);
#269=ADVANCED_FACE('',(#241),#255,.T.);
#270=ADVANCED_FACE('',(#242),#256,.F.);
#271=ADVANCED_FACE('',(#243),#257,.T.);
#272=CLOSED_SHELL('',(#258,#259,#260,#261,#262,#263,#264,#265,#266,#267,
#268,#269,#270,#271));
#273=STYLED_ITEM('',(#274),#281);
#274=PRESENTATION_STYLE_ASSIGNMENT((#275));
#275=SURFACE_STYLE_USAGE(.BOTH.,#276);
#276=SURFACE_SIDE_STYLE('',(#277));
#277=SURFACE_STYLE_FILL_AREA(#278);
#278=FILL_AREA_STYLE('',(#279));
#279=FILL_AREA_STYLE_COLOUR('',#280);
#280=DRAUGHTING_PRE_DEFINED_COLOUR('red');
#281=MANIFOLD_SOLID_BREP('Part 3',#272);
#282=SHAPE_DEFINITION_REPRESENTATION(#446,#283);
#283=SHAPE_REPRESENTATION('Part 3',(#284),#441);
#284=AXIS2_PLACEMENT_3D('',#365,#299,#300);
#285=AXIS2_PLACEMENT_3D('',#366,#301,#302);
#286=AXIS2_PLACEMENT_3D('',#383,#311,#312);
#287=AXIS2_PLACEMENT_3D('',#389,#316,#317);
#288=AXIS2_PLACEMENT_3D('',#395,#321,#322);
#289=AXIS2_PLACEMENT_3D('',#398,#325,#326);
#290=AXIS2_PLACEMENT_3D('',#399,#327,#328);
#291=AXIS2_PLACEMENT_3D('',#408,#333,#334);
#292=AXIS2_PLACEMENT_3D('',#414,#338,#339);
#293=AXIS2_PLACEMENT_3D('',#428,#347,#348);
#294=AXIS2_PLACEMENT_3D('',#431,#351,#352);
#295=AXIS2_PLACEMENT_3D('',#434,#355,#356);
#296=AXIS2_PLACEMENT_3D('',#435,#357,#358);
#297=AXIS2_PLACEMENT_3D('',#438,#361,#362);
#298=AXIS2_PLACEMENT_3D('',#439,#363,#364);
#299=DIRECTION('',(0.,0.,1.));
#300=DIRECTION('',(1.,0.,0.));
#301=DIRECTION('',(0.,0.,1.));
#302=DIRECTION('',(0.,-1.,0.));
#303=DIRECTION('',(1.,0.,0.));
#304=DIRECTION('',(0.,-1.,0.));
#305=DIRECTION('',(-1.,0.,0.));
#306=DIRECTION('',(0.,-1.,0.));
#307=DIRECTION('',(1.,0.,0.));
#308=DIRECTION('',(0.,-1.,0.));
#309=DIRECTION('',(1.,0.,0.));
#310=DIRECTION('',(0.,-1.,0.));
#311=DIRECTION('',(-1.,0.,6.67201336914157E-17));
#312=DIRECTION('',(-6.67201336914157E-17,0.,-1.));
#313=DIRECTION('',(6.67201336914157E-17,0.,1.));
#314=DIRECTION('',(6.67201336914157E-17,0.,1.));
#315=DIRECTION('',(0.,-1.,0.));
#316=DIRECTION('',(0.,0.,1.));
#317=DIRECTION('',(0.,-1.,0.));
#318=DIRECTION('',(1.,0.,0.));
#319=DIRECTION('',(1.,0.,0.));
#320=DIRECTION('',(0.,-1.,0.));
#321=DIRECTION('',(-1.,0.,6.67201336914157E-17));
#322=DIRECTION('',(-6.67201336914157E-17,0.,-1.));
#323=DIRECTION('',(6.67201336914157E-17,0.,1.));
#324=DIRECTION('',(6.67201336914157E-17,0.,1.));
#325=DIRECTION('',(0.,1.,0.));
#326=DIRECTION('',(-1.,0.,0.));
#327=DIRECTION('',(0.,0.,1.));
#328=DIRECTION('',(0.,-1.,0.));
#329=DIRECTION('',(1.,0.,0.));
#330=DIRECTION('',(0.,-1.,0.));
#331=DIRECTION('',(1.,0.,0.));
#332=DIRECTION('',(0.,-1.,0.));
#333=DIRECTION('',(-1.,0.,-2.94020928131662E-16));
#334=DIRECTION('',(2.94020928131662E-16,0.,-1.));
#335=DIRECTION('',(-2.94020928131662E-16,0.,1.));
#336=DIRECTION('',(-2.94020928131662E-16,0.,1.));
#337=DIRECTION('',(0.,-1.,0.));
#338=DIRECTION('',(0.,0.,1.));
#339=DIRECTION('',(0.,-1.,0.));
#340=DIRECTION('',(1.,0.,0.));
#341=DIRECTION('',(0.,1.,0.));
#342=DIRECTION('',(1.,0.,0.));
#343=DIRECTION('',(0.,-1.,0.));
#344=DIRECTION('',(1.,0.,0.));
#345=DIRECTION('',(1.,0.,0.));
#346=DIRECTION('',(0.,1.,0.));
#347=DIRECTION('',(-1.,0.,-2.94020928131662E-16));
#348=DIRECTION('',(2.94020928131662E-16,0.,-1.));
#349=DIRECTION('',(-2.94020928131662E-16,0.,1.));
#350=DIRECTION('',(-2.94020928131662E-16,0.,1.));
#351=DIRECTION('',(0.,1.,0.));
#352=DIRECTION('',(-1.,0.,0.));
#353=DIRECTION('',(0.,0.,1.));
#354=DIRECTION('',(0.,0.,1.));
#355=DIRECTION('',(0.,1.,0.));
#356=DIRECTION('',(-1.,0.,0.));
#357=DIRECTION('',(0.,1.,0.));
#358=DIRECTION('',(1.,0.,0.));
#359=DIRECTION('',(0.,0.,1.));
#360=DIRECTION('',(0.,0.,1.));
#361=DIRECTION('',(-1.,0.,0.));
#362=DIRECTION('',(0.,1.,0.));
#363=DIRECTION('',(-1.,0.,0.));
#364=DIRECTION('',(0.,1.,0.));
#365=CARTESIAN_POINT('',(0.,0.,0.));
#366=CARTESIAN_POINT('',(1.7347234759768E-18,0.002,0.026));
#367=CARTESIAN_POINT('',(1.7347234759768E-18,0.021,0.026));
#368=CARTESIAN_POINT('',(0.00654460824720531,0.021,0.026));
#369=CARTESIAN_POINT('',(0.01435,0.021,0.026));
#370=CARTESIAN_POINT('',(0.00654460824720531,0.015,0.026));
#371=CARTESIAN_POINT('',(0.00654460824720531,0.009,0.026));
#372=CARTESIAN_POINT('',(8.67361737988404E-19,0.009,0.026));
#373=CARTESIAN_POINT('',(-0.00654460824720531,0.009,0.026));
#374=CARTESIAN_POINT('',(-0.00654460824720531,0.015,0.026));
#375=CARTESIAN_POINT('',(-0.00654460824720531,0.021,0.026));
#376=CARTESIAN_POINT('',(1.7347234759768E-18,0.021,0.026));
#377=CARTESIAN_POINT('',(-0.01435,0.021,0.026));
#378=CARTESIAN_POINT('',(-0.01435,0.002,0.026));
#379=CARTESIAN_POINT('',(-0.01435,0.,0.026));
#380=CARTESIAN_POINT('',(1.7347234759768E-18,0.,0.026));
#381=CARTESIAN_POINT('',(0.01435,0.,0.026));
#382=CARTESIAN_POINT('',(0.01435,0.002,0.026));
#383=CARTESIAN_POINT('',(-0.01435,0.002,0.));
#384=CARTESIAN_POINT('',(-0.01435,0.,0.));
#385=CARTESIAN_POINT('',(-0.01435,0.,-0.026));
#386=CARTESIAN_POINT('',(-0.01435,0.021,0.));
#387=CARTESIAN_POINT('',(-0.01435,0.021,-0.026));
#388=CARTESIAN_POINT('',(-0.01435,0.002,-0.026));
#389=CARTESIAN_POINT('',(-1.7347234759768E-18,0.002,-0.026));
#390=CARTESIAN_POINT('',(-1.7347234759768E-18,0.,-0.026));
#391=CARTESIAN_POINT('',(0.01435,0.,-0.026));
#392=CARTESIAN_POINT('',(-1.7347234759768E-18,0.021,-0.026));
#393=CARTESIAN_POINT('',(0.01435,0.021,-0.026));
#394=CARTESIAN_POINT('',(0.01435,0.002,-0.026));
#395=CARTESIAN_POINT('',(0.01435,0.002,0.));
#396=CARTESIAN_POINT('',(0.01435,0.,0.));
#397=CARTESIAN_POINT('',(0.01435,0.021,0.));
#398=CARTESIAN_POINT('',(0.,0.,0.));
#399=CARTESIAN_POINT('',(6.93889390390723E-18,0.021,-0.0245));
#400=CARTESIAN_POINT('',(6.93889390390723E-18,0.002,-0.0245));
#401=CARTESIAN_POINT('',(-0.01285,0.002,-0.0245));
#402=CARTESIAN_POINT('',(0.01285,0.002,-0.0245));
#403=CARTESIAN_POINT('',(0.01285,0.021,-0.0245));
#404=CARTESIAN_POINT('',(0.01285,0.021,-0.0245));
#405=CARTESIAN_POINT('',(6.93889390390723E-18,0.021,-0.0245));
#406=CARTESIAN_POINT('',(-0.01285,0.021,-0.0245));
#407=CARTESIAN_POINT('',(-0.01285,0.021,-0.0245));
#408=CARTESIAN_POINT('',(-0.01285,0.021,-0.0009));
#409=CARTESIAN_POINT('',(-0.01285,0.002,-0.0009));
#410=CARTESIAN_POINT('',(-0.01285,0.002,0.0227));
#411=CARTESIAN_POINT('',(-0.01285,0.021,-0.0009));
#412=CARTESIAN_POINT('',(-0.01285,0.021,0.0227));
#413=CARTESIAN_POINT('',(-0.01285,0.021,0.0227));
#414=CARTESIAN_POINT('',(-5.20417042793042E-18,0.021,0.0227));
#415=CARTESIAN_POINT('',(8.67361737988404E-19,0.009,0.0227));
#416=CARTESIAN_POINT('',(-0.00654460824720531,0.009,0.0227));
#417=CARTESIAN_POINT('',(0.00654460824720531,0.009,0.0227));
#418=CARTESIAN_POINT('',(0.00654460824720531,0.015,0.0227));
#419=CARTESIAN_POINT('',(0.00654460824720531,0.021,0.0227));
#420=CARTESIAN_POINT('',(-5.20417042793042E-18,0.021,0.0227));
#421=CARTESIAN_POINT('',(0.01285,0.021,0.0227));
#422=CARTESIAN_POINT('',(0.01285,0.021,0.0227));
#423=CARTESIAN_POINT('',(0.01285,0.002,0.0227));
#424=CARTESIAN_POINT('',(-5.20417042793042E-18,0.002,0.0227));
#425=CARTESIAN_POINT('',(-5.20417042793042E-18,0.021,0.0227));
#426=CARTESIAN_POINT('',(-0.00654460824720531,0.021,0.0227));
#427=CARTESIAN_POINT('',(-0.00654460824720531,0.015,0.0227));
#428=CARTESIAN_POINT('',(0.01285,0.021,-0.0009));
#429=CARTESIAN_POINT('',(0.01285,0.002,-0.0009));
#430=CARTESIAN_POINT('',(0.01285,0.021,-0.0009));
#431=CARTESIAN_POINT('',(0.,0.021,0.));
#432=CARTESIAN_POINT('',(-0.00654460824720531,0.021,-0.026002));
#433=CARTESIAN_POINT('',(0.00654460824720531,0.021,-0.026002));
#434=CARTESIAN_POINT('',(0.,0.002,0.));
#435=CARTESIAN_POINT('',(8.67361737988404E-19,0.009,-0.026002));
#436=CARTESIAN_POINT('',(-0.00654460824720531,0.009,-0.026002));
#437=CARTESIAN_POINT('',(0.00654460824720531,0.009,-0.026002));
#438=CARTESIAN_POINT('',(-0.00654460824720531,0.015,-0.026002));
#439=CARTESIAN_POINT('',(0.00654460824720531,0.015,-0.026002));
#440=MECHANICAL_DESIGN_GEOMETRIC_PRESENTATION_REPRESENTATION('',(#273),
#441);
#441=(
GEOMETRIC_REPRESENTATION_CONTEXT(3)
GLOBAL_UNCERTAINTY_ASSIGNED_CONTEXT((#442))
GLOBAL_UNIT_ASSIGNED_CONTEXT((#445,#444,#443))
REPRESENTATION_CONTEXT('Part 3','TOP_LEVEL_ASSEMBLY_PART')
);
#442=UNCERTAINTY_MEASURE_WITH_UNIT(LENGTH_MEASURE(1.E-8),#445,
'DISTANCE_ACCURACY_VALUE','Maximum Tolerance applied to model');
#443=(
NAMED_UNIT(*)
SI_UNIT($,.STERADIAN.)
SOLID_ANGLE_UNIT()
);
#444=(
NAMED_UNIT(*)
PLANE_ANGLE_UNIT()
SI_UNIT($,.RADIAN.)
);
#445=(
LENGTH_UNIT()
NAMED_UNIT(*)
SI_UNIT($,.METRE.)
);
#446=PRODUCT_DEFINITION_SHAPE('','',#447);
#447=PRODUCT_DEFINITION('','',#449,#448);
#448=PRODUCT_DEFINITION_CONTEXT('',#455,'design');
#449=PRODUCT_DEFINITION_FORMATION_WITH_SPECIFIED_SOURCE('','',#451,
 .NOT_KNOWN.);
#450=PRODUCT_RELATED_PRODUCT_CATEGORY('','',(#451));
#451=PRODUCT('Part 3','Part 3','Part 3',(#453));
#452=PRODUCT_CATEGORY('','');
#453=PRODUCT_CONTEXT('',#455,'mechanical');
#454=APPLICATION_PROTOCOL_DEFINITION('international standard',
'ap242_managed_model_based_3d_engineering',2011,#455);
#455=APPLICATION_CONTEXT('managed model based 3d engineering');
ENDSEC;
END-ISO-10303-21;
